  0
SECTION
  2
HEADER
  9
$ACADVER
  1
AC1009
  0
ENDSEC
  0
SECTION
  2
TABLES
  0
TABLE
  2
LTYPE
 70
2
  0
LTYPE
  2
CONTINUOUS
 70
0
  3
Solid line
 72
65
 73
0
 40
0.0
  0
LTYPE
  2
CHAINED
 70
0
  3
Chained line
 72
65
 73
4
 40
24.000000
 49
15.000000
 49
-3.000000
 49
3.000000
 49
-3.000000
  0
LTYPE
  2
Dashed
 70
0
  3
Dashed line
 72
65
 73
2
 40
10.000000
 49
5.000000
 49
-5.000000
  0
ENDTAB
  0
TABLE
  2
LAYER
 70
2
  0
ENDTAB
  0
ENDSEC
  0
SECTION
  2
ENTITIES
  0
ARC
  8
0
 10
77.111968
 20
421.438654
 30
0.000000
 40
4.500374
 50
179.475831
 51
186.975520
  0
ARC
  8
0
 10
77.111950
 20
421.438651
 30
0.000000
 40
4.500355
 50
186.975518
 51
194.475228
  0
ARC
  8
0
 10
77.111914
 20
421.438642
 30
0.000000
 40
4.500318
 50
194.475226
 51
201.974978
  0
ARC
  8
0
 10
77.111866
 20
421.438622
 30
0.000000
 40
4.500266
 50
201.974976
 51
209.474785
  0
ARC
  8
0
 10
77.111810
 20
421.438591
 30
0.000000
 40
4.500202
 50
209.474784
 51
216.974664
  0
ARC
  8
0
 10
77.111753
 20
421.438548
 30
0.000000
 40
4.500131
 50
216.974664
 51
224.474623
  0
ARC
  8
0
 10
77.111701
 20
421.438496
 30
0.000000
 40
4.500057
 50
224.474623
 51
231.974664
  0
ARC
  8
0
 10
77.111657
 20
421.438440
 30
0.000000
 40
4.499986
 50
231.974664
 51
239.474784
  0
ARC
  8
0
 10
77.111625
 20
421.438386
 30
0.000000
 40
4.499922
 50
239.474785
 51
246.974976
  0
ARC
  8
0
 10
77.111604
 20
421.438338
 30
0.000000
 40
4.499870
 50
246.974978
 51
254.475226
  0
ARC
  8
0
 10
77.111594
 20
421.438302
 30
0.000000
 40
4.499834
 50
254.475228
 51
261.975518
  0
ARC
  8
0
 10
77.111591
 20
421.438283
 30
0.000000
 40
4.499815
 50
261.975520
 51
269.475831
  0
ARC
  8
0
 10
77.111591
 20
421.438283
 30
0.000000
 40
4.499815
 50
269.475833
 51
276.976144
  0
ARC
  8
0
 10
77.111589
 20
421.438302
 30
0.000000
 40
4.499834
 50
276.976146
 51
284.476435
  0
ARC
  8
0
 10
77.111579
 20
421.438338
 30
0.000000
 40
4.499870
 50
284.476437
 51
291.976686
  0
ARC
  8
0
 10
77.111560
 20
421.438386
 30
0.000000
 40
4.499922
 50
291.976687
 51
299.476878
  0
ARC
  8
0
 10
77.111528
 20
421.438442
 30
0.000000
 40
4.499986
 50
299.476879
 51
306.976999
  0
ARC
  8
0
 10
77.111485
 20
421.438498
 30
0.000000
 40
4.500057
 50
306.977000
 51
314.477041
  0
ARC
  8
0
 10
77.111434
 20
421.438551
 30
0.000000
 40
4.500131
 50
314.477041
 51
321.977000
  0
ARC
  8
0
 10
77.111378
 20
421.438595
 30
0.000000
 40
4.500202
 50
321.976999
 51
329.476879
  0
ARC
  8
0
 10
77.111323
 20
421.438627
 30
0.000000
 40
4.500266
 50
329.476878
 51
336.976687
  0
ARC
  8
0
 10
77.111275
 20
421.438648
 30
0.000000
 40
4.500318
 50
336.976686
 51
344.476437
  0
ARC
  8
0
 10
77.111240
 20
421.438658
 30
0.000000
 40
4.500355
 50
344.476435
 51
351.976146
  0
ARC
  8
0
 10
77.111221
 20
421.438661
 30
0.000000
 40
4.500374
 50
351.976144
 51
359.475833
  0
ARC
  8
0
 10
77.111221
 20
421.438661
 30
0.000000
 40
4.500374
 50
359.475831
 51
6.975520
  0
ARC
  8
0
 10
77.111240
 20
421.438663
 30
0.000000
 40
4.500355
 50
6.975518
 51
14.475228
  0
ARC
  8
0
 10
77.111275
 20
421.438673
 30
0.000000
 40
4.500318
 50
14.475226
 51
21.974978
  0
ARC
  8
0
 10
77.111324
 20
421.438692
 30
0.000000
 40
4.500266
 50
21.974976
 51
29.474785
  0
ARC
  8
0
 10
77.111379
 20
421.438724
 30
0.000000
 40
4.500202
 50
29.474784
 51
36.974664
  0
ARC
  8
0
 10
77.111436
 20
421.438766
 30
0.000000
 40
4.500131
 50
36.974664
 51
44.474623
  0
ARC
  8
0
 10
77.111488
 20
421.438818
 30
0.000000
 40
4.500057
 50
44.474623
 51
51.974664
  0
ARC
  8
0
 10
77.111532
 20
421.438874
 30
0.000000
 40
4.499986
 50
51.974664
 51
59.474784
  0
ARC
  8
0
 10
77.111565
 20
421.438929
 30
0.000000
 40
4.499922
 50
59.474785
 51
66.974976
  0
ARC
  8
0
 10
77.111585
 20
421.438977
 30
0.000000
 40
4.499870
 50
66.974978
 51
74.475226
  0
ARC
  8
0
 10
77.111595
 20
421.439012
 30
0.000000
 40
4.499834
 50
74.475228
 51
81.975518
  0
ARC
  8
0
 10
77.111598
 20
421.439031
 30
0.000000
 40
4.499815
 50
81.975520
 51
89.475831
  0
ARC
  8
0
 10
77.111598
 20
421.439031
 30
0.000000
 40
4.499815
 50
89.475833
 51
96.976144
  0
ARC
  8
0
 10
77.111601
 20
421.439012
 30
0.000000
 40
4.499834
 50
96.976146
 51
104.476435
  0
ARC
  8
0
 10
77.111610
 20
421.438977
 30
0.000000
 40
4.499870
 50
104.476437
 51
111.976686
  0
ARC
  8
0
 10
77.111629
 20
421.438928
 30
0.000000
 40
4.499922
 50
111.976687
 51
119.476878
  0
ARC
  8
0
 10
77.111661
 20
421.438873
 30
0.000000
 40
4.499986
 50
119.476879
 51
126.976999
  0
ARC
  8
0
 10
77.111704
 20
421.438816
 30
0.000000
 40
4.500057
 50
126.977000
 51
134.477041
  0
ARC
  8
0
 10
77.111755
 20
421.438763
 30
0.000000
 40
4.500131
 50
134.477041
 51
141.977000
  0
ARC
  8
0
 10
77.111811
 20
421.438720
 30
0.000000
 40
4.500202
 50
141.976999
 51
149.476879
  0
ARC
  8
0
 10
77.111866
 20
421.438687
 30
0.000000
 40
4.500266
 50
149.476878
 51
156.976687
  0
ARC
  8
0
 10
77.111914
 20
421.438667
 30
0.000000
 40
4.500318
 50
156.976686
 51
164.476437
  0
ARC
  8
0
 10
77.111950
 20
421.438657
 30
0.000000
 40
4.500355
 50
164.476435
 51
171.976146
  0
ARC
  8
0
 10
77.111968
 20
421.438654
 30
0.000000
 40
4.500374
 50
171.976144
 51
179.475833
  0
ARC
  8
0
 10
10.043844
 20
421.438661
 30
0.000000
 40
4.500374
 50
180.524167
 51
188.023856
  0
ARC
  8
0
 10
10.043825
 20
421.438658
 30
0.000000
 40
4.500355
 50
188.023854
 51
195.523565
  0
ARC
  8
0
 10
10.043790
 20
421.438648
 30
0.000000
 40
4.500318
 50
195.523563
 51
203.023314
  0
ARC
  8
0
 10
10.043742
 20
421.438627
 30
0.000000
 40
4.500266
 50
203.023313
 51
210.523122
  0
ARC
  8
0
 10
10.043687
 20
421.438595
 30
0.000000
 40
4.500202
 50
210.523121
 51
218.023001
  0
ARC
  8
0
 10
10.043631
 20
421.438551
 30
0.000000
 40
4.500131
 50
218.023000
 51
225.522959
  0
ARC
  8
0
 10
10.043579
 20
421.438498
 30
0.000000
 40
4.500057
 50
225.522959
 51
233.023000
  0
ARC
  8
0
 10
10.043536
 20
421.438442
 30
0.000000
 40
4.499986
 50
233.023001
 51
240.523121
  0
ARC
  8
0
 10
10.043505
 20
421.438386
 30
0.000000
 40
4.499922
 50
240.523122
 51
248.023313
  0
ARC
  8
0
 10
10.043485
 20
421.438338
 30
0.000000
 40
4.499870
 50
248.023314
 51
255.523563
  0
ARC
  8
0
 10
10.043476
 20
421.438302
 30
0.000000
 40
4.499834
 50
255.523565
 51
263.023854
  0
ARC
  8
0
 10
10.043474
 20
421.438283
 30
0.000000
 40
4.499815
 50
263.023856
 51
270.524167
  0
ARC
  8
0
 10
10.043473
 20
421.438283
 30
0.000000
 40
4.499815
 50
270.524169
 51
278.024480
  0
ARC
  8
0
 10
10.043471
 20
421.438302
 30
0.000000
 40
4.499834
 50
278.024482
 51
285.524772
  0
ARC
  8
0
 10
10.043461
 20
421.438338
 30
0.000000
 40
4.499870
 50
285.524774
 51
293.025022
  0
ARC
  8
0
 10
10.043440
 20
421.438386
 30
0.000000
 40
4.499922
 50
293.025024
 51
300.525215
  0
ARC
  8
0
 10
10.043408
 20
421.438440
 30
0.000000
 40
4.499986
 50
300.525216
 51
308.025336
  0
ARC
  8
0
 10
10.043364
 20
421.438496
 30
0.000000
 40
4.500057
 50
308.025336
 51
315.525377
  0
ARC
  8
0
 10
10.043311
 20
421.438548
 30
0.000000
 40
4.500131
 50
315.525377
 51
323.025336
  0
ARC
  8
0
 10
10.043255
 20
421.438591
 30
0.000000
 40
4.500202
 50
323.025336
 51
330.525216
  0
ARC
  8
0
 10
10.043199
 20
421.438622
 30
0.000000
 40
4.500266
 50
330.525215
 51
338.025024
  0
ARC
  8
0
 10
10.043151
 20
421.438642
 30
0.000000
 40
4.500318
 50
338.025022
 51
345.524774
  0
ARC
  8
0
 10
10.043115
 20
421.438651
 30
0.000000
 40
4.500355
 50
345.524772
 51
353.024482
  0
ARC
  8
0
 10
10.043096
 20
421.438654
 30
0.000000
 40
4.500374
 50
353.024480
 51
0.524169
  0
ARC
  8
0
 10
10.043096
 20
421.438654
 30
0.000000
 40
4.500374
 50
0.524167
 51
8.023856
  0
ARC
  8
0
 10
10.043115
 20
421.438657
 30
0.000000
 40
4.500355
 50
8.023854
 51
15.523565
  0
ARC
  8
0
 10
10.043151
 20
421.438667
 30
0.000000
 40
4.500318
 50
15.523563
 51
23.023314
  0
ARC
  8
0
 10
10.043199
 20
421.438687
 30
0.000000
 40
4.500266
 50
23.023313
 51
30.523122
  0
ARC
  8
0
 10
10.043253
 20
421.438720
 30
0.000000
 40
4.500202
 50
30.523121
 51
38.023001
  0
ARC
  8
0
 10
10.043309
 20
421.438763
 30
0.000000
 40
4.500131
 50
38.023000
 51
45.522959
  0
ARC
  8
0
 10
10.043361
 20
421.438816
 30
0.000000
 40
4.500057
 50
45.522959
 51
53.023000
  0
ARC
  8
0
 10
10.043404
 20
421.438873
 30
0.000000
 40
4.499986
 50
53.023001
 51
60.523121
  0
ARC
  8
0
 10
10.043435
 20
421.438928
 30
0.000000
 40
4.499922
 50
60.523122
 51
68.023313
  0
ARC
  8
0
 10
10.043455
 20
421.438977
 30
0.000000
 40
4.499870
 50
68.023314
 51
75.523563
  0
ARC
  8
0
 10
10.043464
 20
421.439012
 30
0.000000
 40
4.499834
 50
75.523565
 51
83.023854
  0
ARC
  8
0
 10
10.043467
 20
421.439031
 30
0.000000
 40
4.499815
 50
83.023856
 51
90.524167
  0
ARC
  8
0
 10
10.043467
 20
421.439031
 30
0.000000
 40
4.499815
 50
90.524169
 51
98.024480
  0
ARC
  8
0
 10
10.043470
 20
421.439012
 30
0.000000
 40
4.499834
 50
98.024482
 51
105.524772
  0
ARC
  8
0
 10
10.043480
 20
421.438977
 30
0.000000
 40
4.499870
 50
105.524774
 51
113.025022
  0
ARC
  8
0
 10
10.043500
 20
421.438929
 30
0.000000
 40
4.499922
 50
113.025024
 51
120.525215
  0
ARC
  8
0
 10
10.043533
 20
421.438874
 30
0.000000
 40
4.499986
 50
120.525216
 51
128.025336
  0
ARC
  8
0
 10
10.043576
 20
421.438818
 30
0.000000
 40
4.500057
 50
128.025336
 51
135.525377
  0
ARC
  8
0
 10
10.043629
 20
421.438766
 30
0.000000
 40
4.500131
 50
135.525377
 51
143.025336
  0
ARC
  8
0
 10
10.043686
 20
421.438724
 30
0.000000
 40
4.500202
 50
143.025336
 51
150.525216
  0
ARC
  8
0
 10
10.043741
 20
421.438692
 30
0.000000
 40
4.500266
 50
150.525215
 51
158.025024
  0
ARC
  8
0
 10
10.043789
 20
421.438673
 30
0.000000
 40
4.500318
 50
158.025022
 51
165.524774
  0
ARC
  8
0
 10
10.043825
 20
421.438663
 30
0.000000
 40
4.500355
 50
165.524772
 51
173.024482
  0
ARC
  8
0
 10
10.043844
 20
421.438661
 30
0.000000
 40
4.500374
 50
173.024480
 51
180.524169
  0
ARC
  8
0
 10
13.559727
 20
37.053460
 30
0.000000
 40
4.500374
 50
0.524167
 51
8.023856
  0
ARC
  8
0
 10
13.559746
 20
37.053463
 30
0.000000
 40
4.500355
 50
8.023854
 51
15.523565
  0
ARC
  8
0
 10
13.559782
 20
37.053473
 30
0.000000
 40
4.500318
 50
15.523563
 51
23.023314
  0
ARC
  8
0
 10
13.559830
 20
37.053493
 30
0.000000
 40
4.500266
 50
23.023313
 51
30.523122
  0
ARC
  8
0
 10
13.559885
 20
37.053526
 30
0.000000
 40
4.500202
 50
30.523121
 51
38.023001
  0
ARC
  8
0
 10
13.559941
 20
37.053570
 30
0.000000
 40
4.500131
 50
38.023000
 51
45.522959
  0
ARC
  8
0
 10
13.559992
 20
37.053622
 30
0.000000
 40
4.500057
 50
45.522959
 51
53.023000
  0
ARC
  8
0
 10
13.560035
 20
37.053679
 30
0.000000
 40
4.499986
 50
53.023001
 51
60.523121
  0
ARC
  8
0
 10
13.560066
 20
37.053735
 30
0.000000
 40
4.499922
 50
60.523122
 51
68.023313
  0
ARC
  8
0
 10
13.560086
 20
37.053783
 30
0.000000
 40
4.499870
 50
68.023314
 51
75.523563
  0
ARC
  8
0
 10
13.560095
 20
37.053818
 30
0.000000
 40
4.499834
 50
75.523565
 51
83.023854
  0
ARC
  8
0
 10
13.560098
 20
37.053837
 30
0.000000
 40
4.499815
 50
83.023856
 51
90.524167
  0
ARC
  8
0
 10
13.560098
 20
37.053837
 30
0.000000
 40
4.499815
 50
90.524169
 51
98.024480
  0
ARC
  8
0
 10
13.560101
 20
37.053818
 30
0.000000
 40
4.499834
 50
98.024482
 51
105.524772
  0
ARC
  8
0
 10
13.560111
 20
37.053783
 30
0.000000
 40
4.499870
 50
105.524774
 51
113.025022
  0
ARC
  8
0
 10
13.560131
 20
37.053735
 30
0.000000
 40
4.499922
 50
113.025024
 51
120.525215
  0
ARC
  8
0
 10
13.560164
 20
37.053680
 30
0.000000
 40
4.499986
 50
120.525216
 51
128.025336
  0
ARC
  8
0
 10
13.560207
 20
37.053624
 30
0.000000
 40
4.500057
 50
128.025336
 51
135.525377
  0
ARC
  8
0
 10
13.560260
 20
37.053573
 30
0.000000
 40
4.500131
 50
135.525377
 51
143.025336
  0
ARC
  8
0
 10
13.560317
 20
37.053530
 30
0.000000
 40
4.500202
 50
143.025336
 51
150.525216
  0
ARC
  8
0
 10
13.560372
 20
37.053498
 30
0.000000
 40
4.500266
 50
150.525215
 51
158.025024
  0
ARC
  8
0
 10
13.560421
 20
37.053479
 30
0.000000
 40
4.500318
 50
158.025022
 51
165.524774
  0
ARC
  8
0
 10
13.560456
 20
37.053469
 30
0.000000
 40
4.500355
 50
165.524772
 51
173.024482
  0
ARC
  8
0
 10
13.560475
 20
37.053467
 30
0.000000
 40
4.500374
 50
173.024480
 51
180.524169
  0
ARC
  8
0
 10
13.560475
 20
37.053467
 30
0.000000
 40
4.500374
 50
180.524167
 51
188.023856
  0
ARC
  8
0
 10
13.560456
 20
37.053464
 30
0.000000
 40
4.500355
 50
188.023854
 51
195.523565
  0
ARC
  8
0
 10
13.560421
 20
37.053454
 30
0.000000
 40
4.500318
 50
195.523563
 51
203.023314
  0
ARC
  8
0
 10
13.560373
 20
37.053434
 30
0.000000
 40
4.500266
 50
203.023313
 51
210.523122
  0
ARC
  8
0
 10
13.560318
 20
37.053401
 30
0.000000
 40
4.500202
 50
210.523121
 51
218.023001
  0
ARC
  8
0
 10
13.560262
 20
37.053357
 30
0.000000
 40
4.500131
 50
218.023000
 51
225.522959
  0
ARC
  8
0
 10
13.560210
 20
37.053305
 30
0.000000
 40
4.500057
 50
225.522959
 51
233.023000
  0
ARC
  8
0
 10
13.560168
 20
37.053248
 30
0.000000
 40
4.499986
 50
233.023001
 51
240.523121
  0
ARC
  8
0
 10
13.560136
 20
37.053192
 30
0.000000
 40
4.499922
 50
240.523122
 51
248.023313
  0
ARC
  8
0
 10
13.560117
 20
37.053144
 30
0.000000
 40
4.499870
 50
248.023314
 51
255.523563
  0
ARC
  8
0
 10
13.560107
 20
37.053109
 30
0.000000
 40
4.499834
 50
255.523565
 51
263.023854
  0
ARC
  8
0
 10
13.560105
 20
37.053090
 30
0.000000
 40
4.499815
 50
263.023856
 51
270.524167
  0
ARC
  8
0
 10
13.560105
 20
37.053090
 30
0.000000
 40
4.499815
 50
270.524169
 51
278.024480
  0
ARC
  8
0
 10
13.560102
 20
37.053109
 30
0.000000
 40
4.499834
 50
278.024482
 51
285.524772
  0
ARC
  8
0
 10
13.560092
 20
37.053144
 30
0.000000
 40
4.499870
 50
285.524774
 51
293.025022
  0
ARC
  8
0
 10
13.560071
 20
37.053192
 30
0.000000
 40
4.499922
 50
293.025024
 51
300.525215
  0
ARC
  8
0
 10
13.560039
 20
37.053247
 30
0.000000
 40
4.499986
 50
300.525216
 51
308.025336
  0
ARC
  8
0
 10
13.559995
 20
37.053303
 30
0.000000
 40
4.500057
 50
308.025336
 51
315.525377
  0
ARC
  8
0
 10
13.559942
 20
37.053354
 30
0.000000
 40
4.500131
 50
315.525377
 51
323.025336
  0
ARC
  8
0
 10
13.559886
 20
37.053397
 30
0.000000
 40
4.500202
 50
323.025336
 51
330.525216
  0
ARC
  8
0
 10
13.559830
 20
37.053429
 30
0.000000
 40
4.500266
 50
330.525215
 51
338.025024
  0
ARC
  8
0
 10
13.559782
 20
37.053448
 30
0.000000
 40
4.500318
 50
338.025022
 51
345.524774
  0
ARC
  8
0
 10
13.559746
 20
37.053458
 30
0.000000
 40
4.500355
 50
345.524772
 51
353.024482
  0
ARC
  8
0
 10
13.559727
 20
37.053460
 30
0.000000
 40
4.500374
 50
353.024480
 51
0.524169
  0
ARC
  8
0
 10
73.594590
 20
37.053467
 30
0.000000
 40
4.500374
 50
359.475831
 51
6.975520
  0
ARC
  8
0
 10
73.594609
 20
37.053469
 30
0.000000
 40
4.500355
 50
6.975518
 51
14.475228
  0
ARC
  8
0
 10
73.594644
 20
37.053479
 30
0.000000
 40
4.500318
 50
14.475226
 51
21.974978
  0
ARC
  8
0
 10
73.594692
 20
37.053498
 30
0.000000
 40
4.500266
 50
21.974976
 51
29.474785
  0
ARC
  8
0
 10
73.594748
 20
37.053530
 30
0.000000
 40
4.500202
 50
29.474784
 51
36.974664
  0
ARC
  8
0
 10
73.594805
 20
37.053573
 30
0.000000
 40
4.500131
 50
36.974664
 51
44.474623
  0
ARC
  8
0
 10
73.594857
 20
37.053624
 30
0.000000
 40
4.500057
 50
44.474623
 51
51.974664
  0
ARC
  8
0
 10
73.594901
 20
37.053680
 30
0.000000
 40
4.499986
 50
51.974664
 51
59.474784
  0
ARC
  8
0
 10
73.594934
 20
37.053735
 30
0.000000
 40
4.499922
 50
59.474785
 51
66.974976
  0
ARC
  8
0
 10
73.594954
 20
37.053783
 30
0.000000
 40
4.499870
 50
66.974978
 51
74.475226
  0
ARC
  8
0
 10
73.594964
 20
37.053818
 30
0.000000
 40
4.499834
 50
74.475228
 51
81.975518
  0
ARC
  8
0
 10
73.594967
 20
37.053837
 30
0.000000
 40
4.499815
 50
81.975520
 51
89.475831
  0
ARC
  8
0
 10
73.594967
 20
37.053837
 30
0.000000
 40
4.499815
 50
89.475833
 51
96.976144
  0
ARC
  8
0
 10
73.594969
 20
37.053818
 30
0.000000
 40
4.499834
 50
96.976146
 51
104.476435
  0
ARC
  8
0
 10
73.594979
 20
37.053783
 30
0.000000
 40
4.499870
 50
104.476437
 51
111.976686
  0
ARC
  8
0
 10
73.594998
 20
37.053735
 30
0.000000
 40
4.499922
 50
111.976687
 51
119.476878
  0
ARC
  8
0
 10
73.595030
 20
37.053679
 30
0.000000
 40
4.499986
 50
119.476879
 51
126.976999
  0
ARC
  8
0
 10
73.595073
 20
37.053622
 30
0.000000
 40
4.500057
 50
126.977000
 51
134.477041
  0
ARC
  8
0
 10
73.595124
 20
37.053570
 30
0.000000
 40
4.500131
 50
134.477041
 51
141.977000
  0
ARC
  8
0
 10
73.595180
 20
37.053526
 30
0.000000
 40
4.500202
 50
141.976999
 51
149.476879
  0
ARC
  8
0
 10
73.595235
 20
37.053493
 30
0.000000
 40
4.500266
 50
149.476878
 51
156.976687
  0
ARC
  8
0
 10
73.595283
 20
37.053473
 30
0.000000
 40
4.500318
 50
156.976686
 51
164.476437
  0
ARC
  8
0
 10
73.595318
 20
37.053463
 30
0.000000
 40
4.500355
 50
164.476435
 51
171.976146
  0
ARC
  8
0
 10
73.595337
 20
37.053460
 30
0.000000
 40
4.500374
 50
171.976144
 51
179.475833
  0
ARC
  8
0
 10
73.595337
 20
37.053460
 30
0.000000
 40
4.500374
 50
179.475831
 51
186.975520
  0
ARC
  8
0
 10
73.595318
 20
37.053458
 30
0.000000
 40
4.500355
 50
186.975518
 51
194.475228
  0
ARC
  8
0
 10
73.595283
 20
37.053448
 30
0.000000
 40
4.500318
 50
194.475226
 51
201.974978
  0
ARC
  8
0
 10
73.595235
 20
37.053429
 30
0.000000
 40
4.500266
 50
201.974976
 51
209.474785
  0
ARC
  8
0
 10
73.595179
 20
37.053397
 30
0.000000
 40
4.500202
 50
209.474784
 51
216.974664
  0
ARC
  8
0
 10
73.595122
 20
37.053354
 30
0.000000
 40
4.500131
 50
216.974664
 51
224.474623
  0
ARC
  8
0
 10
73.595070
 20
37.053303
 30
0.000000
 40
4.500057
 50
224.474623
 51
231.974664
  0
ARC
  8
0
 10
73.595026
 20
37.053247
 30
0.000000
 40
4.499986
 50
231.974664
 51
239.474784
  0
ARC
  8
0
 10
73.594993
 20
37.053192
 30
0.000000
 40
4.499922
 50
239.474785
 51
246.974976
  0
ARC
  8
0
 10
73.594973
 20
37.053144
 30
0.000000
 40
4.499870
 50
246.974978
 51
254.475226
  0
ARC
  8
0
 10
73.594963
 20
37.053109
 30
0.000000
 40
4.499834
 50
254.475228
 51
261.975518
  0
ARC
  8
0
 10
73.594960
 20
37.053090
 30
0.000000
 40
4.499815
 50
261.975520
 51
269.475831
  0
ARC
  8
0
 10
73.594960
 20
37.053090
 30
0.000000
 40
4.499815
 50
269.475833
 51
276.976144
  0
ARC
  8
0
 10
73.594958
 20
37.053109
 30
0.000000
 40
4.499834
 50
276.976146
 51
284.476435
  0
ARC
  8
0
 10
73.594948
 20
37.053144
 30
0.000000
 40
4.499870
 50
284.476437
 51
291.976686
  0
ARC
  8
0
 10
73.594929
 20
37.053192
 30
0.000000
 40
4.499922
 50
291.976687
 51
299.476878
  0
ARC
  8
0
 10
73.594897
 20
37.053248
 30
0.000000
 40
4.499986
 50
299.476879
 51
306.976999
  0
ARC
  8
0
 10
73.594854
 20
37.053305
 30
0.000000
 40
4.500057
 50
306.977000
 51
314.477041
  0
ARC
  8
0
 10
73.594803
 20
37.053357
 30
0.000000
 40
4.500131
 50
314.477041
 51
321.977000
  0
ARC
  8
0
 10
73.594747
 20
37.053401
 30
0.000000
 40
4.500202
 50
321.976999
 51
329.476879
  0
ARC
  8
0
 10
73.594692
 20
37.053434
 30
0.000000
 40
4.500266
 50
329.476878
 51
336.976687
  0
ARC
  8
0
 10
73.594644
 20
37.053454
 30
0.000000
 40
4.500318
 50
336.976686
 51
344.476437
  0
ARC
  8
0
 10
73.594609
 20
37.053464
 30
0.000000
 40
4.500355
 50
344.476435
 51
351.976146
  0
ARC
  8
0
 10
73.594590
 20
37.053467
 30
0.000000
 40
4.500374
 50
351.976144
 51
359.475833
  0
LINE
  8
0
 10
22.374263
 20
2.752945
 30
0.0
 11
3.564743
 21
36.500367
 31
0.0
  0
LINE
  8
0
 10
3.564743
 20
36.500367
 30
0.0
 11
0.000000
 21
426.144417
 31
0.0
  0
LINE
  8
0
 10
0.000000
 20
426.144417
 30
0.0
 11
18.406907
 21
436.404570
 31
0.0
  0
LINE
  8
0
 10
18.406907
 20
436.404570
 30
0.0
 11
19.577595
 21
437.219807
 31
0.0
  0
LINE
  8
0
 10
19.577595
 20
437.219807
 30
0.0
 11
67.577470
 21
437.219807
 31
0.0
  0
LINE
  8
0
 10
67.577470
 20
437.219807
 30
0.0
 11
68.748158
 21
436.404570
 31
0.0
  0
LINE
  8
0
 10
68.748158
 20
436.404570
 30
0.0
 11
87.155065
 21
426.144417
 31
0.0
  0
LINE
  8
0
 10
87.155065
 20
426.144417
 30
0.0
 11
83.590322
 21
36.500367
 31
0.0
  0
LINE
  8
0
 10
83.590322
 20
36.500367
 30
0.0
 11
64.780802
 21
2.752945
 31
0.0
  0
LINE
  8
0
 10
64.780802
 20
2.752945
 30
0.0
 11
63.577470
 21
0.000000
 31
0.0
  0
LINE
  8
0
 10
63.577470
 20
0.000000
 30
0.0
 11
23.577595
 21
0.000000
 31
0.0
  0
LINE
  8
0
 10
23.577595
 20
0.000000
 30
0.0
 11
22.374263
 21
2.752945
 31
0.0
  0
ENDSEC
  0
EOF
