  0
SECTION
  2
HEADER
  9
$ACADVER
  1
AC1009
  0
ENDSEC
  0
SECTION
  2
TABLES
  0
TABLE
  2
LTYPE
 70
2
  0
LTYPE
  2
CONTINUOUS
 70
0
  3
Solid line
 72
65
 73
0
 40
0.0
  0
LTYPE
  2
CHAINED
 70
0
  3
Chained line
 72
65
 73
4
 40
24.000000
 49
15.000000
 49
-3.000000
 49
3.000000
 49
-3.000000
  0
LTYPE
  2
Dashed
 70
0
  3
Dashed line
 72
65
 73
2
 40
10.000000
 49
5.000000
 49
-5.000000
  0
ENDTAB
  0
TABLE
  2
LAYER
 70
2
  0
ENDTAB
  0
ENDSEC
  0
SECTION
  2
ENTITIES
  0
ARC
  8
0
 10
77.233489
 20
743.637827
 30
0.000000
 40
4.500124
 50
359.769898
 51
7.197533
  0
ARC
  8
0
 10
77.233495
 20
743.637828
 30
0.000000
 40
4.500118
 50
7.197532
 51
14.697435
  0
ARC
  8
0
 10
77.233507
 20
743.637831
 30
0.000000
 40
4.500106
 50
14.697435
 51
22.197352
  0
ARC
  8
0
 10
77.233523
 20
743.637838
 30
0.000000
 40
4.500088
 50
22.197352
 51
29.697288
  0
ARC
  8
0
 10
77.233542
 20
743.637848
 30
0.000000
 40
4.500067
 50
29.697288
 51
37.197248
  0
ARC
  8
0
 10
77.233560
 20
743.637863
 30
0.000000
 40
4.500044
 50
37.197248
 51
44.697234
  0
ARC
  8
0
 10
77.233578
 20
743.637880
 30
0.000000
 40
4.500019
 50
44.697234
 51
52.197248
  0
ARC
  8
0
 10
77.233592
 20
743.637899
 30
0.000000
 40
4.499995
 50
52.197248
 51
59.697288
  0
ARC
  8
0
 10
77.233603
 20
743.637917
 30
0.000000
 40
4.499974
 50
59.697288
 51
67.197352
  0
ARC
  8
0
 10
77.233610
 20
743.637933
 30
0.000000
 40
4.499957
 50
67.197352
 51
74.697435
  0
ARC
  8
0
 10
77.233613
 20
743.637945
 30
0.000000
 40
4.499945
 50
74.697435
 51
82.197532
  0
ARC
  8
0
 10
77.233614
 20
743.637951
 30
0.000000
 40
4.499938
 50
82.197533
 51
89.697636
  0
ARC
  8
0
 10
77.233614
 20
743.637951
 30
0.000000
 40
4.499938
 50
89.697637
 51
97.197740
  0
ARC
  8
0
 10
77.233615
 20
743.637945
 30
0.000000
 40
4.499945
 50
97.197741
 51
104.697837
  0
ARC
  8
0
 10
77.233618
 20
743.637933
 30
0.000000
 40
4.499957
 50
104.697838
 51
112.197921
  0
ARC
  8
0
 10
77.233625
 20
743.637917
 30
0.000000
 40
4.499974
 50
112.197921
 51
119.697985
  0
ARC
  8
0
 10
77.233635
 20
743.637898
 30
0.000000
 40
4.499995
 50
119.697985
 51
127.198025
  0
ARC
  8
0
 10
77.233650
 20
743.637879
 30
0.000000
 40
4.500019
 50
127.198025
 51
134.698039
  0
ARC
  8
0
 10
77.233667
 20
743.637862
 30
0.000000
 40
4.500044
 50
134.698039
 51
142.198025
  0
ARC
  8
0
 10
77.233685
 20
743.637848
 30
0.000000
 40
4.500067
 50
142.198025
 51
149.697985
  0
ARC
  8
0
 10
77.233704
 20
743.637837
 30
0.000000
 40
4.500088
 50
149.697985
 51
157.197921
  0
ARC
  8
0
 10
77.233720
 20
743.637830
 30
0.000000
 40
4.500106
 50
157.197921
 51
164.697838
  0
ARC
  8
0
 10
77.233732
 20
743.637827
 30
0.000000
 40
4.500118
 50
164.697837
 51
172.197741
  0
ARC
  8
0
 10
77.233738
 20
743.637826
 30
0.000000
 40
4.500124
 50
172.197740
 51
179.697637
  0
ARC
  8
0
 10
77.233738
 20
743.637826
 30
0.000000
 40
4.500124
 50
179.697636
 51
187.197533
  0
ARC
  8
0
 10
77.233732
 20
743.637825
 30
0.000000
 40
4.500118
 50
187.197532
 51
194.697435
  0
ARC
  8
0
 10
77.233720
 20
743.637822
 30
0.000000
 40
4.500106
 50
194.697435
 51
202.197352
  0
ARC
  8
0
 10
77.233704
 20
743.637815
 30
0.000000
 40
4.500088
 50
202.197352
 51
209.697288
  0
ARC
  8
0
 10
77.233685
 20
743.637805
 30
0.000000
 40
4.500067
 50
209.697288
 51
217.197248
  0
ARC
  8
0
 10
77.233666
 20
743.637790
 30
0.000000
 40
4.500044
 50
217.197248
 51
224.697234
  0
ARC
  8
0
 10
77.233649
 20
743.637773
 30
0.000000
 40
4.500019
 50
224.697234
 51
232.197248
  0
ARC
  8
0
 10
77.233634
 20
743.637754
 30
0.000000
 40
4.499995
 50
232.197248
 51
239.697288
  0
ARC
  8
0
 10
77.233624
 20
743.637736
 30
0.000000
 40
4.499974
 50
239.697288
 51
247.197352
  0
ARC
  8
0
 10
77.233617
 20
743.637720
 30
0.000000
 40
4.499957
 50
247.197352
 51
254.697435
  0
ARC
  8
0
 10
77.233614
 20
743.637708
 30
0.000000
 40
4.499945
 50
254.697435
 51
262.197532
  0
ARC
  8
0
 10
77.233613
 20
743.637702
 30
0.000000
 40
4.499938
 50
262.197533
 51
269.697636
  0
ARC
  8
0
 10
77.233613
 20
743.637702
 30
0.000000
 40
4.499938
 50
269.697637
 51
277.197740
  0
ARC
  8
0
 10
77.233612
 20
743.637708
 30
0.000000
 40
4.499945
 50
277.197741
 51
284.697837
  0
ARC
  8
0
 10
77.233609
 20
743.637720
 30
0.000000
 40
4.499957
 50
284.697838
 51
292.197921
  0
ARC
  8
0
 10
77.233602
 20
743.637736
 30
0.000000
 40
4.499974
 50
292.197921
 51
299.697985
  0
ARC
  8
0
 10
77.233592
 20
743.637755
 30
0.000000
 40
4.499995
 50
299.697985
 51
307.198025
  0
ARC
  8
0
 10
77.233577
 20
743.637774
 30
0.000000
 40
4.500019
 50
307.198025
 51
314.698039
  0
ARC
  8
0
 10
77.233560
 20
743.637791
 30
0.000000
 40
4.500044
 50
314.698039
 51
322.198025
  0
ARC
  8
0
 10
77.233541
 20
743.637805
 30
0.000000
 40
4.500067
 50
322.198025
 51
329.697985
  0
ARC
  8
0
 10
77.233523
 20
743.637816
 30
0.000000
 40
4.500088
 50
329.697985
 51
337.197921
  0
ARC
  8
0
 10
77.233507
 20
743.637823
 30
0.000000
 40
4.500106
 50
337.197921
 51
344.697838
  0
ARC
  8
0
 10
77.233495
 20
743.637826
 30
0.000000
 40
4.500118
 50
344.697837
 51
352.197741
  0
ARC
  8
0
 10
77.233489
 20
743.637827
 30
0.000000
 40
4.500124
 50
352.197740
 51
359.697637
  0
ARC
  8
0
 10
77.233489
 20
743.637827
 30
0.000000
 40
4.500124
 50
359.697636
 51
359.769898
  0
ARC
  8
0
 10
10.028281
 20
743.637826
 30
0.000000
 40
4.500124
 50
0.231030
 51
0.302364
  0
ARC
  8
0
 10
10.028281
 20
743.637826
 30
0.000000
 40
4.500124
 50
0.302363
 51
7.802260
  0
ARC
  8
0
 10
10.028287
 20
743.637827
 30
0.000000
 40
4.500118
 50
7.802259
 51
15.302163
  0
ARC
  8
0
 10
10.028299
 20
743.637830
 30
0.000000
 40
4.500106
 50
15.302162
 51
22.802079
  0
ARC
  8
0
 10
10.028315
 20
743.637837
 30
0.000000
 40
4.500088
 50
22.802079
 51
30.302015
  0
ARC
  8
0
 10
10.028333
 20
743.637848
 30
0.000000
 40
4.500067
 50
30.302015
 51
37.801975
  0
ARC
  8
0
 10
10.028352
 20
743.637862
 30
0.000000
 40
4.500044
 50
37.801975
 51
45.301961
  0
ARC
  8
0
 10
10.028369
 20
743.637879
 30
0.000000
 40
4.500019
 50
45.301961
 51
52.801975
  0
ARC
  8
0
 10
10.028383
 20
743.637898
 30
0.000000
 40
4.499995
 50
52.801975
 51
60.302015
  0
ARC
  8
0
 10
10.028394
 20
743.637917
 30
0.000000
 40
4.499974
 50
60.302015
 51
67.802079
  0
ARC
  8
0
 10
10.028400
 20
743.637933
 30
0.000000
 40
4.499957
 50
67.802079
 51
75.302162
  0
ARC
  8
0
 10
10.028403
 20
743.637945
 30
0.000000
 40
4.499945
 50
75.302163
 51
82.802259
  0
ARC
  8
0
 10
10.028404
 20
743.637951
 30
0.000000
 40
4.499938
 50
82.802260
 51
90.302363
  0
ARC
  8
0
 10
10.028404
 20
743.637951
 30
0.000000
 40
4.499938
 50
90.302364
 51
97.802467
  0
ARC
  8
0
 10
10.028405
 20
743.637945
 30
0.000000
 40
4.499945
 50
97.802468
 51
105.302565
  0
ARC
  8
0
 10
10.028409
 20
743.637933
 30
0.000000
 40
4.499957
 50
105.302565
 51
112.802648
  0
ARC
  8
0
 10
10.028415
 20
743.637917
 30
0.000000
 40
4.499974
 50
112.802648
 51
120.302712
  0
ARC
  8
0
 10
10.028426
 20
743.637899
 30
0.000000
 40
4.499995
 50
120.302712
 51
127.802752
  0
ARC
  8
0
 10
10.028441
 20
743.637880
 30
0.000000
 40
4.500019
 50
127.802752
 51
135.302766
  0
ARC
  8
0
 10
10.028458
 20
743.637863
 30
0.000000
 40
4.500044
 50
135.302766
 51
142.802752
  0
ARC
  8
0
 10
10.028477
 20
743.637848
 30
0.000000
 40
4.500067
 50
142.802752
 51
150.302712
  0
ARC
  8
0
 10
10.028495
 20
743.637838
 30
0.000000
 40
4.500088
 50
150.302712
 51
157.802648
  0
ARC
  8
0
 10
10.028511
 20
743.637831
 30
0.000000
 40
4.500106
 50
157.802648
 51
165.302565
  0
ARC
  8
0
 10
10.028523
 20
743.637828
 30
0.000000
 40
4.500118
 50
165.302565
 51
172.802468
  0
ARC
  8
0
 10
10.028529
 20
743.637827
 30
0.000000
 40
4.500124
 50
172.802467
 51
180.302364
  0
ARC
  8
0
 10
10.028529
 20
743.637827
 30
0.000000
 40
4.500124
 50
180.302363
 51
187.802260
  0
ARC
  8
0
 10
10.028523
 20
743.637826
 30
0.000000
 40
4.500118
 50
187.802259
 51
195.302163
  0
ARC
  8
0
 10
10.028511
 20
743.637823
 30
0.000000
 40
4.500106
 50
195.302162
 51
202.802079
  0
ARC
  8
0
 10
10.028495
 20
743.637816
 30
0.000000
 40
4.500088
 50
202.802079
 51
210.302015
  0
ARC
  8
0
 10
10.028477
 20
743.637805
 30
0.000000
 40
4.500067
 50
210.302015
 51
217.801975
  0
ARC
  8
0
 10
10.028458
 20
743.637791
 30
0.000000
 40
4.500044
 50
217.801975
 51
225.301961
  0
ARC
  8
0
 10
10.028441
 20
743.637774
 30
0.000000
 40
4.500019
 50
225.301961
 51
232.801975
  0
ARC
  8
0
 10
10.028427
 20
743.637755
 30
0.000000
 40
4.499995
 50
232.801975
 51
240.302015
  0
ARC
  8
0
 10
10.028416
 20
743.637736
 30
0.000000
 40
4.499974
 50
240.302015
 51
247.802079
  0
ARC
  8
0
 10
10.028410
 20
743.637720
 30
0.000000
 40
4.499957
 50
247.802079
 51
255.302162
  0
ARC
  8
0
 10
10.028407
 20
743.637708
 30
0.000000
 40
4.499945
 50
255.302163
 51
262.802259
  0
ARC
  8
0
 10
10.028406
 20
743.637702
 30
0.000000
 40
4.499938
 50
262.802260
 51
270.302363
  0
ARC
  8
0
 10
10.028406
 20
743.637702
 30
0.000000
 40
4.499938
 50
270.302364
 51
277.802467
  0
ARC
  8
0
 10
10.028405
 20
743.637708
 30
0.000000
 40
4.499945
 50
277.802468
 51
285.302565
  0
ARC
  8
0
 10
10.028401
 20
743.637720
 30
0.000000
 40
4.499957
 50
285.302565
 51
292.802648
  0
ARC
  8
0
 10
10.028395
 20
743.637736
 30
0.000000
 40
4.499974
 50
292.802648
 51
300.302712
  0
ARC
  8
0
 10
10.028384
 20
743.637754
 30
0.000000
 40
4.499995
 50
300.302712
 51
307.802752
  0
ARC
  8
0
 10
10.028369
 20
743.637773
 30
0.000000
 40
4.500019
 50
307.802752
 51
315.302766
  0
ARC
  8
0
 10
10.028352
 20
743.637790
 30
0.000000
 40
4.500044
 50
315.302766
 51
322.802752
  0
ARC
  8
0
 10
10.028333
 20
743.637805
 30
0.000000
 40
4.500067
 50
322.802752
 51
330.302712
  0
ARC
  8
0
 10
10.028315
 20
743.637815
 30
0.000000
 40
4.500088
 50
330.302712
 51
337.802648
  0
ARC
  8
0
 10
10.028299
 20
743.637822
 30
0.000000
 40
4.500106
 50
337.802648
 51
345.302565
  0
ARC
  8
0
 10
10.028287
 20
743.637825
 30
0.000000
 40
4.500118
 50
345.302565
 51
352.802468
  0
ARC
  8
0
 10
10.028281
 20
743.637826
 30
0.000000
 40
4.500124
 50
352.802467
 51
0.231030
  0
ARC
  8
0
 10
13.716875
 20
44.681862
 30
0.000000
 40
4.500124
 50
0.462053
 51
7.802260
  0
ARC
  8
0
 10
13.716881
 20
44.681863
 30
0.000000
 40
4.500118
 50
7.802259
 51
15.302163
  0
ARC
  8
0
 10
13.716893
 20
44.681867
 30
0.000000
 40
4.500106
 50
15.302162
 51
22.802079
  0
ARC
  8
0
 10
13.716909
 20
44.681873
 30
0.000000
 40
4.500088
 50
22.802079
 51
30.302015
  0
ARC
  8
0
 10
13.716927
 20
44.681884
 30
0.000000
 40
4.500067
 50
30.302015
 51
37.801975
  0
ARC
  8
0
 10
13.716946
 20
44.681899
 30
0.000000
 40
4.500044
 50
37.801975
 51
45.301961
  0
ARC
  8
0
 10
13.716963
 20
44.681916
 30
0.000000
 40
4.500019
 50
45.301961
 51
52.801975
  0
ARC
  8
0
 10
13.716977
 20
44.681935
 30
0.000000
 40
4.499995
 50
52.801975
 51
60.302015
  0
ARC
  8
0
 10
13.716988
 20
44.681953
 30
0.000000
 40
4.499974
 50
60.302015
 51
67.802079
  0
ARC
  8
0
 10
13.716994
 20
44.681969
 30
0.000000
 40
4.499957
 50
67.802079
 51
75.302162
  0
ARC
  8
0
 10
13.716997
 20
44.681981
 30
0.000000
 40
4.499945
 50
75.302163
 51
82.802259
  0
ARC
  8
0
 10
13.716998
 20
44.681987
 30
0.000000
 40
4.499938
 50
82.802260
 51
90.302363
  0
ARC
  8
0
 10
13.716998
 20
44.681987
 30
0.000000
 40
4.499938
 50
90.302364
 51
97.802467
  0
ARC
  8
0
 10
13.716999
 20
44.681981
 30
0.000000
 40
4.499945
 50
97.802468
 51
105.302565
  0
ARC
  8
0
 10
13.717002
 20
44.681969
 30
0.000000
 40
4.499957
 50
105.302565
 51
112.802648
  0
ARC
  8
0
 10
13.717009
 20
44.681953
 30
0.000000
 40
4.499974
 50
112.802648
 51
120.302712
  0
ARC
  8
0
 10
13.717020
 20
44.681935
 30
0.000000
 40
4.499995
 50
120.302712
 51
127.802752
  0
ARC
  8
0
 10
13.717034
 20
44.681916
 30
0.000000
 40
4.500019
 50
127.802752
 51
135.302766
  0
ARC
  8
0
 10
13.717052
 20
44.681899
 30
0.000000
 40
4.500044
 50
135.302766
 51
142.802752
  0
ARC
  8
0
 10
13.717071
 20
44.681885
 30
0.000000
 40
4.500067
 50
142.802752
 51
150.302712
  0
ARC
  8
0
 10
13.717089
 20
44.681874
 30
0.000000
 40
4.500088
 50
150.302712
 51
157.802648
  0
ARC
  8
0
 10
13.717105
 20
44.681868
 30
0.000000
 40
4.500106
 50
157.802648
 51
165.302565
  0
ARC
  8
0
 10
13.717117
 20
44.681865
 30
0.000000
 40
4.500118
 50
165.302565
 51
172.802468
  0
ARC
  8
0
 10
13.717123
 20
44.681864
 30
0.000000
 40
4.500124
 50
172.802467
 51
180.302364
  0
ARC
  8
0
 10
13.717123
 20
44.681864
 30
0.000000
 40
4.500124
 50
180.302363
 51
187.802260
  0
ARC
  8
0
 10
13.717117
 20
44.681863
 30
0.000000
 40
4.500118
 50
187.802259
 51
195.302163
  0
ARC
  8
0
 10
13.717105
 20
44.681860
 30
0.000000
 40
4.500106
 50
195.302162
 51
202.802079
  0
ARC
  8
0
 10
13.717089
 20
44.681853
 30
0.000000
 40
4.500088
 50
202.802079
 51
210.302015
  0
ARC
  8
0
 10
13.717071
 20
44.681842
 30
0.000000
 40
4.500067
 50
210.302015
 51
217.801975
  0
ARC
  8
0
 10
13.717052
 20
44.681828
 30
0.000000
 40
4.500044
 50
217.801975
 51
225.301961
  0
ARC
  8
0
 10
13.717035
 20
44.681810
 30
0.000000
 40
4.500019
 50
225.301961
 51
232.801975
  0
ARC
  8
0
 10
13.717021
 20
44.681791
 30
0.000000
 40
4.499995
 50
232.801975
 51
240.302015
  0
ARC
  8
0
 10
13.717010
 20
44.681773
 30
0.000000
 40
4.499974
 50
240.302015
 51
247.802079
  0
ARC
  8
0
 10
13.717004
 20
44.681757
 30
0.000000
 40
4.499957
 50
247.802079
 51
255.302162
  0
ARC
  8
0
 10
13.717000
 20
44.681745
 30
0.000000
 40
4.499945
 50
255.302163
 51
262.802259
  0
ARC
  8
0
 10
13.717000
 20
44.681739
 30
0.000000
 40
4.499938
 50
262.802260
 51
270.302363
  0
ARC
  8
0
 10
13.717000
 20
44.681739
 30
0.000000
 40
4.499938
 50
270.302364
 51
277.802467
  0
ARC
  8
0
 10
13.716999
 20
44.681745
 30
0.000000
 40
4.499945
 50
277.802468
 51
285.302565
  0
ARC
  8
0
 10
13.716995
 20
44.681757
 30
0.000000
 40
4.499957
 50
285.302565
 51
292.802648
  0
ARC
  8
0
 10
13.716989
 20
44.681773
 30
0.000000
 40
4.499974
 50
292.802648
 51
300.302712
  0
ARC
  8
0
 10
13.716978
 20
44.681791
 30
0.000000
 40
4.499995
 50
300.302712
 51
307.802752
  0
ARC
  8
0
 10
13.716963
 20
44.681810
 30
0.000000
 40
4.500019
 50
307.802752
 51
315.302766
  0
ARC
  8
0
 10
13.716946
 20
44.681827
 30
0.000000
 40
4.500044
 50
315.302766
 51
322.802752
  0
ARC
  8
0
 10
13.716927
 20
44.681841
 30
0.000000
 40
4.500067
 50
322.802752
 51
330.302712
  0
ARC
  8
0
 10
13.716909
 20
44.681852
 30
0.000000
 40
4.500088
 50
330.302712
 51
337.802648
  0
ARC
  8
0
 10
13.716893
 20
44.681858
 30
0.000000
 40
4.500106
 50
337.802648
 51
345.302565
  0
ARC
  8
0
 10
13.716881
 20
44.681862
 30
0.000000
 40
4.500118
 50
345.302565
 51
352.802468
  0
ARC
  8
0
 10
13.716875
 20
44.681862
 30
0.000000
 40
4.500124
 50
352.802467
 51
0.302364
  0
ARC
  8
0
 10
13.716875
 20
44.681862
 30
0.000000
 40
4.500124
 50
0.302363
 51
0.462053
  0
ARC
  8
0
 10
73.544895
 20
44.681864
 30
0.000000
 40
4.500124
 50
359.539803
 51
359.697637
  0
ARC
  8
0
 10
73.544895
 20
44.681864
 30
0.000000
 40
4.500124
 50
359.697636
 51
7.197533
  0
ARC
  8
0
 10
73.544901
 20
44.681865
 30
0.000000
 40
4.500118
 50
7.197532
 51
14.697435
  0
ARC
  8
0
 10
73.544913
 20
44.681868
 30
0.000000
 40
4.500106
 50
14.697435
 51
22.197352
  0
ARC
  8
0
 10
73.544929
 20
44.681874
 30
0.000000
 40
4.500088
 50
22.197352
 51
29.697288
  0
ARC
  8
0
 10
73.544948
 20
44.681885
 30
0.000000
 40
4.500067
 50
29.697288
 51
37.197248
  0
ARC
  8
0
 10
73.544967
 20
44.681899
 30
0.000000
 40
4.500044
 50
37.197248
 51
44.697234
  0
ARC
  8
0
 10
73.544984
 20
44.681916
 30
0.000000
 40
4.500019
 50
44.697234
 51
52.197248
  0
ARC
  8
0
 10
73.544998
 20
44.681935
 30
0.000000
 40
4.499995
 50
52.197248
 51
59.697288
  0
ARC
  8
0
 10
73.545009
 20
44.681953
 30
0.000000
 40
4.499974
 50
59.697288
 51
67.197352
  0
ARC
  8
0
 10
73.545016
 20
44.681969
 30
0.000000
 40
4.499957
 50
67.197352
 51
74.697435
  0
ARC
  8
0
 10
73.545019
 20
44.681981
 30
0.000000
 40
4.499945
 50
74.697435
 51
82.197532
  0
ARC
  8
0
 10
73.545020
 20
44.681987
 30
0.000000
 40
4.499938
 50
82.197533
 51
89.697636
  0
ARC
  8
0
 10
73.545020
 20
44.681987
 30
0.000000
 40
4.499938
 50
89.697637
 51
97.197740
  0
ARC
  8
0
 10
73.545021
 20
44.681981
 30
0.000000
 40
4.499945
 50
97.197741
 51
104.697837
  0
ARC
  8
0
 10
73.545024
 20
44.681969
 30
0.000000
 40
4.499957
 50
104.697838
 51
112.197921
  0
ARC
  8
0
 10
73.545031
 20
44.681953
 30
0.000000
 40
4.499974
 50
112.197921
 51
119.697985
  0
ARC
  8
0
 10
73.545041
 20
44.681935
 30
0.000000
 40
4.499995
 50
119.697985
 51
127.198025
  0
ARC
  8
0
 10
73.545056
 20
44.681916
 30
0.000000
 40
4.500019
 50
127.198025
 51
134.698039
  0
ARC
  8
0
 10
73.545073
 20
44.681899
 30
0.000000
 40
4.500044
 50
134.698039
 51
142.198025
  0
ARC
  8
0
 10
73.545092
 20
44.681884
 30
0.000000
 40
4.500067
 50
142.198025
 51
149.697985
  0
ARC
  8
0
 10
73.545110
 20
44.681873
 30
0.000000
 40
4.500088
 50
149.697985
 51
157.197921
  0
ARC
  8
0
 10
73.545126
 20
44.681867
 30
0.000000
 40
4.500106
 50
157.197921
 51
164.697838
  0
ARC
  8
0
 10
73.545138
 20
44.681863
 30
0.000000
 40
4.500118
 50
164.697837
 51
172.197741
  0
ARC
  8
0
 10
73.545144
 20
44.681862
 30
0.000000
 40
4.500124
 50
172.197740
 51
179.697637
  0
ARC
  8
0
 10
73.545144
 20
44.681862
 30
0.000000
 40
4.500124
 50
179.697636
 51
187.197533
  0
ARC
  8
0
 10
73.545138
 20
44.681862
 30
0.000000
 40
4.500118
 50
187.197532
 51
194.697435
  0
ARC
  8
0
 10
73.545126
 20
44.681858
 30
0.000000
 40
4.500106
 50
194.697435
 51
202.197352
  0
ARC
  8
0
 10
73.545110
 20
44.681852
 30
0.000000
 40
4.500088
 50
202.197352
 51
209.697288
  0
ARC
  8
0
 10
73.545091
 20
44.681841
 30
0.000000
 40
4.500067
 50
209.697288
 51
217.197248
  0
ARC
  8
0
 10
73.545072
 20
44.681827
 30
0.000000
 40
4.500044
 50
217.197248
 51
224.697234
  0
ARC
  8
0
 10
73.545055
 20
44.681810
 30
0.000000
 40
4.500019
 50
224.697234
 51
232.197248
  0
ARC
  8
0
 10
73.545041
 20
44.681791
 30
0.000000
 40
4.499995
 50
232.197248
 51
239.697288
  0
ARC
  8
0
 10
73.545030
 20
44.681773
 30
0.000000
 40
4.499974
 50
239.697288
 51
247.197352
  0
ARC
  8
0
 10
73.545023
 20
44.681757
 30
0.000000
 40
4.499957
 50
247.197352
 51
254.697435
  0
ARC
  8
0
 10
73.545020
 20
44.681745
 30
0.000000
 40
4.499945
 50
254.697435
 51
262.197532
  0
ARC
  8
0
 10
73.545019
 20
44.681739
 30
0.000000
 40
4.499938
 50
262.197533
 51
269.697636
  0
ARC
  8
0
 10
73.545019
 20
44.681739
 30
0.000000
 40
4.499938
 50
269.697637
 51
277.197740
  0
ARC
  8
0
 10
73.545018
 20
44.681745
 30
0.000000
 40
4.499945
 50
277.197741
 51
284.697837
  0
ARC
  8
0
 10
73.545015
 20
44.681757
 30
0.000000
 40
4.499957
 50
284.697838
 51
292.197921
  0
ARC
  8
0
 10
73.545008
 20
44.681773
 30
0.000000
 40
4.499974
 50
292.197921
 51
299.697985
  0
ARC
  8
0
 10
73.544998
 20
44.681791
 30
0.000000
 40
4.499995
 50
299.697985
 51
307.198025
  0
ARC
  8
0
 10
73.544983
 20
44.681810
 30
0.000000
 40
4.500019
 50
307.198025
 51
314.698039
  0
ARC
  8
0
 10
73.544966
 20
44.681828
 30
0.000000
 40
4.500044
 50
314.698039
 51
322.198025
  0
ARC
  8
0
 10
73.544947
 20
44.681842
 30
0.000000
 40
4.500067
 50
322.198025
 51
329.697985
  0
ARC
  8
0
 10
73.544929
 20
44.681853
 30
0.000000
 40
4.500088
 50
329.697985
 51
337.197921
  0
ARC
  8
0
 10
73.544913
 20
44.681860
 30
0.000000
 40
4.500106
 50
337.197921
 51
344.697838
  0
ARC
  8
0
 10
73.544901
 20
44.681863
 30
0.000000
 40
4.500118
 50
344.697837
 51
352.197741
  0
ARC
  8
0
 10
73.544895
 20
44.681864
 30
0.000000
 40
4.500124
 50
352.197740
 51
359.539803
  0
LINE
  8
0
 10
22.435068
 20
3.382056
 30
0.0
 11
3.715310
 21
44.975499
 31
0.0
  0
LINE
  8
0
 10
3.715310
 20
44.975499
 30
0.0
 11
0.000000
 21
748.993938
 31
0.0
  0
LINE
  8
0
 10
0.000000
 20
748.993938
 30
0.0
 11
18.456420
 21
757.300759
 31
0.0
  0
LINE
  8
0
 10
18.456420
 20
757.300759
 30
0.0
 11
19.631030
 21
757.964670
 31
0.0
  0
LINE
  8
0
 10
19.631030
 20
757.964670
 30
0.0
 11
67.630988
 21
757.964670
 31
0.0
  0
LINE
  8
0
 10
67.630988
 20
757.964670
 30
0.0
 11
68.805598
 21
757.300759
 31
0.0
  0
LINE
  8
0
 10
68.805598
 20
757.300759
 30
0.0
 11
87.262018
 21
748.993938
 31
0.0
  0
LINE
  8
0
 10
87.262018
 20
748.993938
 30
0.0
 11
83.546708
 21
44.975499
 31
0.0
  0
LINE
  8
0
 10
83.546708
 20
44.975499
 30
0.0
 11
64.826950
 21
3.382056
 31
0.0
  0
LINE
  8
0
 10
64.826950
 20
3.382056
 30
0.0
 11
63.630988
 21
0.000000
 31
0.0
  0
LINE
  8
0
 10
63.630988
 20
0.000000
 30
0.0
 11
23.631030
 21
0.000000
 31
0.0
  0
LINE
  8
0
 10
23.631030
 20
0.000000
 30
0.0
 11
22.435068
 21
3.382056
 31
0.0
  0
ENDSEC
  0
EOF
