  0
SECTION
  2
HEADER
  9
$ACADVER
  1
AC1009
  0
ENDSEC
  0
SECTION
  2
TABLES
  0
TABLE
  2
LTYPE
 70
2
  0
LTYPE
  2
CONTINUOUS
 70
0
  3
Solid line
 72
65
 73
0
 40
0.0
  0
LTYPE
  2
CHAINED
 70
0
  3
Chained line
 72
65
 73
4
 40
24.000000
 49
15.000000
 49
-3.000000
 49
3.000000
 49
-3.000000
  0
LTYPE
  2
Dashed
 70
0
  3
Dashed line
 72
65
 73
2
 40
10.000000
 49
5.000000
 49
-5.000000
  0
ENDTAB
  0
TABLE
  2
LAYER
 70
2
  0
ENDTAB
  0
ENDSEC
  0
SECTION
  2
ENTITIES
  0
CIRCLE
  8
0
 10
84.356194
 20
390.000000
 30
0.000000
 40
3.500000
  0
CIRCLE
  8
0
 10
47.178097
 20
350.000000
 30
0.000000
 40
4.500000
  0
CIRCLE
  8
0
 10
10.000000
 20
390.000000
 30
0.000000
 40
3.500000
  0
CIRCLE
  8
0
 10
47.178097
 20
250.000000
 30
0.000000
 40
4.500000
  0
CIRCLE
  8
0
 10
84.356194
 20
205.936331
 30
0.000000
 40
3.500000
  0
CIRCLE
  8
0
 10
47.178097
 20
150.000000
 30
0.000000
 40
4.500000
  0
CIRCLE
  8
0
 10
10.000000
 20
106.502916
 30
0.000000
 40
3.500000
  0
CIRCLE
  8
0
 10
47.178097
 20
50.000000
 30
0.000000
 40
4.500000
  0
CIRCLE
  8
0
 10
84.356194
 20
106.502916
 30
0.000000
 40
3.500000
  0
CIRCLE
  8
0
 10
10.000000
 20
205.936331
 30
0.000000
 40
3.500000
  0
ARC
  8
0
 10
5.000000
 20
5.000000
 30
0.000000
 40
5.000000
 50
179.999997
 51
270.000000
  0
LINE
  8
0
 10
0.000000
 20
5.000000
 30
0.0
 11
0.000000
 21
395.000000
 31
0.0
  0
ARC
  8
0
 10
5.000000
 20
395.000000
 30
0.000000
 40
5.000000
 50
90.000000
 51
180.000000
  0
LINE
  8
0
 10
5.000000
 20
400.000000
 30
0.0
 11
18.500000
 21
400.000000
 31
0.0
  0
LINE
  8
0
 10
18.500000
 20
400.000000
 30
0.0
 11
19.678097
 21
400.000000
 31
0.0
  0
LINE
  8
0
 10
19.678097
 20
400.000000
 30
0.0
 11
74.678097
 21
400.000000
 31
0.0
  0
LINE
  8
0
 10
74.678097
 20
400.000000
 30
0.0
 11
75.856194
 21
400.000000
 31
0.0
  0
LINE
  8
0
 10
75.856194
 20
400.000000
 30
0.0
 11
89.356194
 21
400.000000
 31
0.0
  0
ARC
  8
0
 10
89.356194
 20
395.000000
 30
0.000000
 40
5.000000
 50
0.000004
 51
90.000000
  0
LINE
  8
0
 10
94.356194
 20
395.000000
 30
0.0
 11
94.356194
 21
5.000000
 31
0.0
  0
ARC
  8
0
 10
89.356194
 20
5.000000
 30
0.000000
 40
5.000000
 50
270.000000
 51
0.000000
  0
LINE
  8
0
 10
89.356194
 20
0.000000
 30
0.0
 11
75.856194
 21
0.000000
 31
0.0
  0
LINE
  8
0
 10
75.856194
 20
0.000000
 30
0.0
 11
74.678097
 21
0.000000
 31
0.0
  0
LINE
  8
0
 10
74.678097
 20
0.000000
 30
0.0
 11
19.678097
 21
0.000000
 31
0.0
  0
LINE
  8
0
 10
19.678097
 20
0.000000
 30
0.0
 11
18.500000
 21
0.000000
 31
0.0
  0
LINE
  8
0
 10
18.500000
 20
0.000000
 30
0.0
 11
5.000000
 21
0.000000
 31
0.0
  0
ENDSEC
  0
EOF
